Текст песни Песни под гитару - Я не могу без тебя

  • Исполнитель: Песни под гитару
  • Название песни: Я не могу без тебя
  • Дата добавления: 21.09.2017 | 11:15:10
  • Просмотров: 459
  • 0 чел. считают текст песни верным
  • 0 чел. считают текст песни неверным

Текст песни

Вступление / 1 куплет

E||--3--------------3----|------------3---------|--3--------------3----|
B||-------0--------------|--0--------------0----|-------0--------------|
G||------------0---------|-------0--------------|------------0---------|
D||----------------------|----------------------|----------------------|
A||----------------------|----------------------|--3-------------------|
E||--0-------------------|----------------------|----------------------|

------------3---------|--3--------------3----|------------3---------|
--0--------------0----|-------0--------------|--0--------------0----|
-------0--------------|------------0---------|-------0--------------|
----------------------|----------------------|----------------------|
----------------------|----------------------|----------------------|
----------------------|--3-------------------|----------------------|

--2--------------3----|------------2---------|-------||
-------0--------------|--0-------------------|-------||
------------0---------|-------0--------------|-------||
--0-------------------|----------------------|-------||
----------------------|----------------------|-------||
----------------------|----------------------|-------||

Перебор под рэпчину /проигрыш/концовка:

E||--0--------------0----|------------0---------|--0--------------0----|
B||-------0--------------|--0--------------0----|-------0--------------|
G||------------0---------|-------0--------------|------------0---------|
D||----------------------|----------------------|----------------------|
A||----------------------|----------------------|--3-------------------|
E||--0-------------------|----------------------|----------------------|

------------0---------|--3--------------3----|------------3---------|
--0--------------0----|-------0--------------|--0--------------0----|
-------0--------------|------------0---------|-------0--------------|
----------------------|----------------------|----------------------|
----------------------|----------------------|----------------------|
----------------------|--3-------------------|----------------------|

--2--------------3----|------------2---------||
-------0--------------|--0-------------------||
------------0---------|-------0--------------||
--0-------------------|----------------------||
----------------------|----------------------||
----------------------|----------------------||

Опять на улице весь день льет дождь
И я как всегда дома замерз
Сижу на кровати, один одинок
И нет никого, кто бы мне помог.

E C G D
Душа моя улетит, туда, где нет никого
Друзей я встречу своих, взгляну в кривое стекло
Опять на улице дождь и снова капли летят
Я умираю давно, я не могу без тебя.

Рэпчина I :

Поднимая голову, вглядываюсь в тучи над головой
и не могу ничего поделать с собой
твой образ перед глазами мне не дает спокойно есть, спать, жить
и каждое утро мысль о том,
что день мне не удастся пережить как вчерашний,
но я вынужден существовать
и всякий раз у зеркала я вижу рядом со своим твое лицо
и мне не скрыться не куда не убежать
и вечером всплывает мысль, что сгину я, в конце концов .

Em C G D
Ты понимаешь давно, но ты не можешь простить
тех глупых слов, что сказал, ты их не можешь забыть
опять на улице дождь и снова капли летят
я умираю давно, я не могу без тебя.

Рэпчина II :

В израненной душе угасли огоньки не нужных ссор
и небо снова плачет, повторяя наш с тобою разговор,
нелепый спор по глупости законченный злыми словами
и наша жизнь разбилась как капли
об острые камни слезы на щеках и боль утраченных надежд
я бегу по серой улице к дому, тому, что был почти родным мне прежде,
я не верю, в то, что ты забыл, меня, но рядом только капли дождя.

Em C G D
Знакомый свет твоих глаз я не могу позабыть
и снова как в первый раз тебя пытаюсь простить
опять на улице дождь и сн

Перевод песни

Introduction / 1 couplet

E || --3 -------------- 3 ---- | ------------ 3 --------- | - -3 -------------- 3 ---- |
B || ------- 0 -------------- | --0 -------------- 0 ---- | - ------ 0 -------------- |
G || ------------ 0 --------- | ------- 0 -------------- | - ----------- 0 --------- |
D || ---------------------- | ---------------------- | - --------------------- |
A || ---------------------- | ---------------------- | - -3 ------------------- |
E || --0 ------------------- | ---------------------- | - --------------------- |

------------ 3 --------- | --3 -------------- 3 ---- | ---- ---- -------- 3 --------- |
--0 -------------- 0 ---- | ------- 0 -------------- | --0- ------------- 0 ---- |
------- 0 -------------- | ------------ 0 --------- | ---- --- 0 -------------- |
---------------------- | ---------------------- | ---- ------------------ |
---------------------- | ---------------------- | ---- ------------------ |
---------------------- | --3 ------------------- | ---- ------------------ |

-------------- ---- ------ ---- ------ ---- ------ ---- ---- ---- --- ||
------- 0 -------------- | --0 ------------------- | ---- --- ||
------------ 0 --------- | ------- 0 -------------- | ---- --- ||
--0 ------------------- | ---------------------- | ---- --- ||
---------------------- | ---------------------- | ---- --- ||
---------------------- | ---------------------- | ---- --- ||

Search for rapper / loss / ending:

E || - 0 -------------- 0 ---- | ------------ 0 --------- | - -0 -------------- 0 ---- |
B || ------- 0 -------------- | --0 -------------- 0 ---- | - ------ 0 -------------- |
G || ------------ 0 --------- | ------- 0 -------------- | - ----------- 0 --------- |
D || ---------------------- | ---------------------- | - --------------------- |
A || ---------------------- | ---------------------- | - -3 ------------------- |
E || --0 ------------------- | ---------------------- | - --------------------- |

------------ 0 --------- | --3 -------------- 3 ---- | ---- ---- -------- 3 --------- |
--0 -------------- 0 ---- | ------- 0 -------------- | --0- ------------- 0 ---- |
------- 0 -------------- | ------------ 0 --------- | ---- --- 0 -------------- |
---------------------- | ---------------------- | ---- ------------------ |
---------------------- | ---------------------- | ---- ------------------ |
---------------------- | --3 ------------------- | ---- ------------------ |

- 2 -------------- 3 ---- | ------------ 2 --------- ||
------- 0 -------------- | --0 ------------------- ||
------------ 0 --------- | ------- 0 -------------- ||
--0 ------------------- | ---------------------- ||
---------------------- | ---------------------- ||
---------------------- | ---------------------- ||

Again in the street it rains all day
And I, as always at home, froze
I'm sitting on the bed, alone
And there is no one who would help me.

E C G D
My soul will fly away, where there is no one
I'll meet my friends, I'll look at the crooked glass
Again in the street the rain and again the drops fly
I'm dying a long time, I can not live without you.

Rapchin I:

Raising my head, I peer into the clouds above my head
and I can not do anything with myself
my image before my eyes does not allow me to eat, sleep, live
and every morning the thought of that,
that day I will not be able to survive as yesterday,
but I have to exist
and every time I see the mirror next to your own face
and I can not hide where not to escape
and in the evening the thought comes up that I will disappear, after all.

Em C G D
You understand long ago, but you can not forgive
those silly words that said, you can not forget them
again on the street rain and again the drops fly
I'm dying a long time, I can not live without you.

Rapchin II:

In the wounded soul, the fires of unnecessary quarrels were quenched
and the sky again cries, repeating our conversation with you,
an absurd dispute over stupidity ended in evil words
and our life broke like drops
about sharp stones tears on cheeks and pain of lost hopes
I run along the gray street to the house, to that which was almost native to me before,
I do not believe in what you forgot, me, but there are only a few drops of rain.

Em C G D
The familiar light of your eyes I can not forget
and again as for the first time I try to forgive you
again on the street it rains and snows

Официальное видео

Смотрите также:

Все тексты Песни под гитару >>>